Monday, May 2, 2011

Kurt Vile - Jesus Fever

Capo III


Intro/Rift:


......D........................A...............C.............G
e:--2-2-2-0-2-2-2-0------0-----------------------
B:--3-3-3-3-3-3-3-3---------2---------1-0--------
G:--2-2-2-2-2-2-2-2----------2-----------0------
D:--0-0-0-0-0-0-0-0-----------------------------0
A:-------------------------0------------3-----------2
E:---------------------------------------------------3


......D........................A...............C.............G
e:--2-2-2-0-2-2-2-0------0-----------------------
B:--3-3-3-3-3-3-3-3---------2---------1-0--------
G:--2-2-2-2-2-2-2-2----------2-----------0------
D:--0-0-0-0-0-0-0-0-----------------------------0
A:-------------------------0------------3-----------2
E:---------------------------------------------------3


.......C...................F..............C..............G
e:-----------------------1-0------------------------
B:----1-0--------------------1------1-0-----------
G:---------0----0------------------------0--------
D:------------2-------3--------------------------0
A:--3------------------------------3-------------2
E:------------------------------------------------3


......Am...C..........F........C..........G
e:--0-0--0----------1-0------------------
B:--1-1--1---------1-----1----1-0---------
G:--2-2--0--0h2-----------------0------
D:--2-2--2------------------------------0
A:--0-0--3-----------------3------------2
E:----------------------------------------3


......Em.........C..........G
e:-----------------------------
B:----------------1-4-1-------
G:----0-3-0------------------
D:---------------------------0
A:--------------3------------2
E:--0------------------------3


.....D........................A
I'd pack my suitcase with myself

............C..........G
But I'm already gone

D..............................A
Cleanse myself with vitamin health

............C..........G
But I'm already gone

C..................................F
I saw it risin' through the horizon

C................G
And I saw it fall

...Am......C.................F
A Jesus fever's flowin' all over

C.................G
Believers and lovers

Em...C...G...


In a black hole I found a broken skull
Now I'm already gone
You can write my whole life down in a little book
When I'm already gone

I started shaking and my heart breaking
And my belly crawled
A Jesus Fever's flowin' all over
Believers and lovers

When I am a ghost, I'll see no reason to run
When I'm already gone
If it wasn't taped, you could escape this song
But I'm already gone

2 comments:

krisclaw said...

wow great tab! i ove this song but didnt feel like taking the time to figure it out! Thanks!

Bakes said...

Awesome. Man, could you do an instructional vid on this on Youtube?